Streaming Bladmuziek ProTabs

Landelijke database streaming bladmuziek met actuele titels en relevante songs onder licentie!

Vanaf heden hebben wij toestemming van alle grote uitgevers om nieuwe en actuele bladmuziek (ProTabs) streaming te plaatsen. Concreet betekend dit dat we wekelijks meerdere bladmuziek, akkoorden, tekst en gitaar tabs gaan toevoegen!

Ja ik wil legaal Bladmuziek streamen  Meer Info
In the live version the guitar is tuned half a tone down. On the record standard tuning 
is used. I only put down the main chords and some variations. I suggest you listen to the track.
For reference please refer to this video: http://giel.vara.nl/media/336856

Intro
e|-9----------5---0--------------------------------------------------------|
B|-10---------5---0--------------------------------------------------------|
G|-9-----14---7---2--------------------------------------------------------|
D|-11----14---7---2--------------------------------------------------------|
A|-9-----12---5---0--------------------------------------------------------|
E|-------------------------------------------------------------------------|

Use alternate picking and try keep the notes very short and tight. Keep your hand 
constantly moving while palm
muting to get the rhythm sound. Some variations are played for the last pulloff.

Verse
4x
e|-------------------------------------------------------------------------|
B|----------10-----------------------5-------------------------------------|
G|-------------9--9--9h11------7--------------2--2--4p2--------------------|
D|----11-------9------------------7-------7---2----------------------------|
A|-9------9------------------5---------5-----------------------------------|
E|-------------------------------------------------------------------------|

Pre-Chorus
e|-9----------5---0-----------9----------5---0-----------------------------|
B|-10---------5---0-----------10---------5---0-----------------------------|
G|-9-----14---7---2-----------9-----14---7---2-----------------------------|
D
...... Helaas, de rest is alleen voor leden /  Members only please subscribe .......
Gitaar Tabs

Speel de Tab van Kenny B - Parijs

Meld je direct aan, pak je gitaar en speel binnen 15 sec mee - Tab van Kenny B - Parijs.
Reeds 65.000 gitaristen zijn je voorgegaan.

DIRECT AANMELDEN >> Kenny B - Parijs <<  

Beoordeel deze tab: Kenny B - Parijs


Comments: Kenny B - Parijs - tab

5
Gerard

Gerard 2015-05-31



Plaats bericht voor Kenny B - Parijs

Via onderstaande formulier kan je een comment plaatsen bij de tab van Kenny B met Parijs.