Altijd is Kortjakje ziek    (kinderliedje)


     


    Altijd is Kortjakje ziek
    midden in de week maar 's zondags niet.
    's Zondags gaat zij naar de kerk
    met een boek vol zilverwerk.
    Altijd is Kortjakje ziek
    midden in de week maar 's zondags niet. 


e----------------------------------------------------------------------
B----------------------------------------------------------------------
G--------0--0--2--2--0-----------------------------------------------
D---------------------------3-3-3-3---2--2----0--0------------------
A--3--3------------------------------------------------3---------------
E------------------------------------------------------------------------

e-----------------------------------------------------------------------
B-----------------------------------------------------------------------
G--0--0---------------------0--0--------------------------------------
D--------3--3--2--2--0-----------3--3--2--2--0---------------------
A-----------------------------------------------------------------------
E-----------------------------------------------------------------------

e-----------------------------------------------------------------------
B------
[ProTab] Play streaming 
Gitaar Tabs

Play guitar Tab ♪ Kinderliedje - Altijd Is Kortjakje Ziek

Register for free o Guitar music and play along withing 15 sec with - Tab ♫ Kinderliedje - Altijd Is Kortjakje Ziek.
Already 65.000 register guitarist.

Free Guitar registration

Rate this guitartabs: Kinderliedje - Altijd Is Kortjakje Ziek


Comments: Kinderliedje - Altijd Is Kortjakje Ziek - tab

5
Ehrhardt

Ehrhardt 2014-04-22

Leuk voor de kinderen, die zingen wel mee :)


daanstuurhaan12

Daanstuurhaan12 2011-01-31

heej bedankt ik probeer hem nu uit de eerste nummer

 

ps: ken hem al een beetje hoor :P


anoniempje

Anoniempje 2010-11-18

Ja, je kan dit liedje op elke snaar spelen!


dowatri123

Dowatri123 2010-11-10

ik ken een veel makkelijker

alleen eerste snaar (bovenste)

0-0-7-7-9-9-7-5-5-5-5-4-4-2-2-0

7-7-5-5-4-4-2

7-7-5-5-4-4-2

0-0-7-7-9-9-7-5-5-5-5-4-4-2-2-0


reneeetje98

Reneeetje98 2010-11-06

die tekst varianten die erbij staan die vind ik best raar


IkBenMitij

IkBenMitij 2010-10-14

Ik vind hem precies ook wel beter klinken zoals die van stierp2000 ... (en gemakkelijker! :D)

Bedankt allebei! ;-)


appelsientje

Appelsientje 2010-07-02

hahah dit is zooo droog omg XD


oma

Oma 2010-05-17

het klinkt een betje als twinkel twijnkel kleine ster of zo iets. xd


Mylo

Mylo 2010-05-15

ik vind het liedje best wel een leuk met myn zusje.


stierp2000

Stierp2000 2010-05-06

Zo vindt ik hem persoonlijk beter. E-----0-0-2-2-0--------------------------- B----------------3-3-3-3----2-2---0-0----- G-3-3------------------------------------2 D------------------------------------------ A------------------------------------------ E------------------------------------------ E𥥤--------------------0-0-------------- B-----------3-3-2-2-0------------3-3-2-2-0 G----------------------------------------- D----------------------------------------- A------------------------------------------ E------------------------------------------ E--------0-0-2-2-0-------------------------- B------------------3-3-3-3---2𦌼----0----- G---3-3------------------------------------2 D------------------------------------------- A------------------------------------------- E------------------------------------------- (mijn mening)



Plaats bericht voor Kinderliedje - Altijd Is Kortjakje Ziek

Via onderstaande formulier kan je een comment plaatsen bij de tab van Kinderliedje met Altijd Is Kortjakje Ziek.

>