Een simpel liedje van Muse.
Er staat al versie van dit liedje op deze site, maar die is onvoldoende om het te spelen.

Intro

-----0-------------------------------0------------------|--------2--------------------2-------|
-----0---------------2-1-0-------0---0----------2-1-0---|----0-----0--------------0-----0-----|
-----1----1--------1-------2-0h1--------------1-------2-|------2-----2---2----------2-----2---|
---2----2--------2-----------------2--------2-----------|--1-----------1--------1-----------1-|
-------------0h2------------------------0h2-------------|2-----------------2--2---------------|
-0---------------------------0--------------------------|-------------------------------------|
 E                                                       B7

You could be my   unintended.        Choise to live my  life extendend.
---------0-------|---------0-------|----------2-------|---------3-------|
-----0-----0-----|-----1-----1-----|-----3------3-----|-----3-----3-----|
-------1-----1---|-------2-----2---|---2---2------2---|-------0-----0---|
---2-----------2-|---2-----------2-|-0--------------0-|---0-----------0-|
-----------------|-0---------------|------------------|-----------------|
-0---------------|-----------------|------------------|-3---------------|
 E                 Am                D                 G5

You could be the    one I'll always     love              
---------0---------|---------2---------|---------0-------|----------0-------|
-----1-----1-------|-----0-----0-------|-----0-----0-----|------0-----0-----|
-------0-----0---0-|-------2-----2---2-|-------1-----1---|--------1-----1---|
---2-----------2---|---1-----------1---|---2-----------2-|---2------------2-|
-3-----------------|-2-----------------|-----------------|------------------|
-------------------|-------------------|-0---------------|-0----------------|
 C                   B7                  E                 E

You could be the  one who listens   to my deepest     inquisitions. 
---------0-------|---------0-------|---------2-------|---------3-------|
-----0-----0-----|-----1-----1-----|-----3-----3-----|-----3-----3-----|
-------1-----1---|-------2-----2---|---2---2-----2---|-------0-----0---|
---2-----------2-|---2-----------2-|-0-------------0-|---0-----------0-|
-----------------|-0---------------|-----------------|-----------------|
-0---------------|-----------------|-----------------|-3---------------|
 E                 Am                D                 G5

You could be the one I'll always love.  
---------0---------|---------2---------|-----------0---------|----------0-------|
-----1-----1-------|-----0-----0-------|-------0-----0-------|------0-----0-----|
-------0-----0---0-|-------2-----2---2-|-----1---1-----1---1-|--------1-----1---|
---2-----------2---|---1-----------1---|---2-------------2---|---2------------2-|
-3-----------------|-2-----------------|---------------------|------------------|
-------------------|-------------------|-0-------------------|-0----------------|
 C                   B7                  E                     E

I'll be there as  soon as I can     but I'm busy      mending broken
---------0-------|---------0-------|---------2-------|---------3-------|
-----0-----0-----|-----1-----1-----|-----3-----3-----|-----3-----3-----|
--
De rest van dit nummer alleen voor Gitaartabs leden! Maak gratis Gitaartabs account aan . 
Gitaar Tabs

Speel de Tab ♪ Muse - Unintended

Meld je aan en speel binnen 15 sec mee met Tab ♫ Muse - Unintended.
Reeds 65.000 gitaristen zijn je voorgegaan.

Gratis Aanmelden Gitaartabs - Basis

Beoordeel deze Gitaartab: Muse - Unintended

Comments Muse - Unintended - tab

Plaats opmerkingen e.o. suggestie voor Muse - Unintended