E----------------------------------------------------------------------------------------------
B------------------------------------------------------------------------5--6--6--6-8--5--5----
G----------------------------------------------7----------5---7--7--7--------------------------
D-----------------------------------------------------7----------------------------------------
A-5--5-5--5-5--5-5-5-5--5--5-5--5-5--5-5-5-5---5-----------------------------------------------
E-----------------------------------------------------------------------------------------------

E --------------------------------------------------------------------------------------------------------------5-
B ----------------------------------------5--6--6--6-8--5--5---------------------------------------6--8--8--8-----
G ---7-5---5-7v ------------5--7--7--7--------------------------7-5--7v---------------5--7--7--7-------------------
D -----------------------7---------------------------------------------------------7------------------------------
A ----------------------------------------------------------------------------------------------------------------
E ----------------------------------------------------------------------------------------------------------------

E-----6--6--5----5------------------------------5----------------------------------------------------------------
B--------------8-------------------5--6--6--8-----------------6--5--5--6-----------------6--5--5--6-----5--------
G---------------------7---------7------------------7--------7--------------7----------7---------------7----------
D----------------------------------------------------------------------------------------------------------------
A----------------------------------------------------------------------------------------------------------------
E----------------------------------------------------------------------------------------------------------------

E--------------------------------------------------------------------------------------------------------------------
B--------------------5--6--6--6-8--5--5-------------------------------------------5--6--6-8--5--5--------------------
G------5--7--7--7-------------------------7-5--5-7v-----------------5--7--7--7----------------------7-5--7v----------
D---7-------------------------------------------------------------7--------------------------------------------------
A-------------------------------------------------------------------------------------
Continue playing this guitar song, but first register (free)  
Gitaar Tabs

Play guitar Tab ♪ Pirates Of The Caribbean - Pirates Of The Caribbean (officiele Versie)

Register for Guitar music and play along withing 15 sec with - Tab ♫ Pirates Of The Caribbean - Pirates Of The Caribbean (officiele Versie).
Already 65.000 register guitarist.

Free Guitar registration

Rate this guitartabs: Pirates Of The Caribbean - Pirates Of The Caribbean (officiele Versie)

Comments Pirates Of The Caribbean - Pirates Of The Caribbean (officiele Versie) - tab

Ev!t@

Ev!t@ 2013-12-22

Coole tabs, jammer dat het bij sommige andere sites vaak geld kost


the rock 24

The rock 24 2013-10-06

als je snel leert kunnen de eerste 2 stukken al vloeiend


darm87

Darm87 2012-11-19

gewoon oefenen je leert steeds meer dus kun je miss vanavond al spelen ligt eraan hoe snel je dingen leert

Gr;resh 


darm87

Darm87 2012-11-18

ow sorry ~ staat niet voor vibrato maar betekent dat je hem langer moet vast houden zo zie je maar dat fouten menselijk zijn


darm87

Darm87 2012-11-14

de v betekent vibirato volgens mij of soms staat er ook ~ denk ik :) 


fernando

Fernando 2011-07-28

tabs zijn zo easy, ik heb nu bijna al een heel reportoir om te spelen, wel heel leuk en gezellig.  ;) ;)

 

 

 

 


fernando

Fernando 2011-07-28

cool zijn die tabs maar wht doe je die smilies


Renée Le.

Renée Le. 2011-01-11

voor wat staat die v? x


tomklomp

Tomklomp 2010-08-19

waarvoor staat die v ?

 


christy_Guitar

Christy_Guitar 2010-07-29

Dankje!
goede tab dit, het duurd even om te oefenen, maar je herkent wel elk stukje wat je speelt vanuit het liedje.


coolchik

Coolchik 2010-06-07

he's a pirat is veel makkelijker dan deze althans dah vind ik

 


Gitaar96

Gitaar96 2010-01-30

Dankjeeeee!


wietskie

Wietskie 2009-10-31

je moet echt dit filmpje zien,
dit jongetje is zooo goed :D
www.youtube.com/watch?v=g5WB-p-QBJc&feature=related



carlijn5oo

Carlijn5oo 2009-09-27

loveit


lennardvZ

LennardvZ 2009-05-27

Als je iets niet snapt van een tab moetje is op deze site kijken:

http://www.tabsrus.nl/node/14


jur

Jur 2009-05-26

thanx Grijns


jur

Jur 2009-05-26

wat betekent die v


jur

Jur 2009-05-26

Type hier je commentaar

 				


ruben007

Ruben007 2009-01-04

zijn er ook zulke vette dingen met akkoorden..??
want het tabs zijn te moeilijk om jezelf te leren..


bloempotje

Bloempotje 2008-12-18

:http://rapidshare.com/files/84964941/Pirates_of_the_caribbean_guitar_tabs.pdf de site voor de noten klopt wel niet...

Ik zou die graag willen hebben, om ik speel alleen maar noten.

weet iemand misschien sites met partituren met alleen maar noten voor de gitaar? Wel graag beetje pop! om ik speel nu al een hele lange tijd alleen maar klassiek

groetjes en bedankt


nodenx

Nodenx 2008-11-29

gwoon geweldig!!!!! Lachen


anneliesb

Anneliesb 2008-11-06

ja, zeker handig, allen me vingers doen nu wel pijn hoor... Grijns


arjan de vries

Arjan de vries 2008-07-29

hartstikke bedankt


bram kamps

Bram kamps 2008-07-10

dank je nu kan ik heb eindelijk verder spelen and alleen dat eerste stukje


Plaats opmerkingen e.o. suggestie voor Pirates Of The Caribbean - Pirates Of The Caribbean (officiele Versie)

>