Streaming Bladmuziek ProTabs

Correcte Tabs - ProTABS

Live meespelen icm video
Wekelijks nieuwe Top 40 songs
Geschreven door gitaardocenten

Vanaf € 5,95 per maand!
Info ProTabs
Streaming Bladmuziek ProTabs

Online Gitaarles

Voor beginners & gevorderden
Lessen incl. begeleidingsmateriaal
Persoonlijke feedback

Vanaf € 9,95 per maand!
Info Online Gitaarles
E--------------------------------------------------------------
B--------------------------------------1-----------------------
G---2--0---------2--0--------2--0--2------2--0-----0--2--------
D---------3------------3------------------------3--------3-----
A-------------3------------------------------------------------
E--------------------------------------------------------------

E--------------------------------------------------------------
B--------------------------------------1--3--1----------
...... Helaas, de rest is alleen voor leden /  Members only please subscribe .......
Gitaar Tabs

Speel de Tab van Sint Maarten - Elf November Is De Dag

Meld je direct aan, pak je gitaar en speel binnen 15 sec mee - Tab van Sint Maarten - Elf November Is De Dag.
Reeds 65.000 gitaristen zijn je voorgegaan.

DIRECT AANMELDEN  

Beoordeel deze tab: Sint Maarten - Elf November Is De Dag


Comments: Sint Maarten - Elf November Is De Dag - tab

5

Plaats bericht voor Sint Maarten - Elf November Is De Dag

Via onderstaande formulier kan je een comment plaatsen bij de tab van Sint Maarten met Elf November Is De Dag.