Wer bisto



Intro en ook Solo
      C              Am                Em	  G(7)
E --------0---0-----------0----0---------------------------------------------||
B ----------3--1-------------3---1---------0-- --------0---------------------||
G --------------0-------2----------2---------0-----------0-------------------||
D ------2-------------2------------------2-----------0-------0---------------||2x
A ----3-------------0-------------------2-----------2----------2-------------||
E -------------------------------------0-----------3-------------------------||


G/B:  320033


Dm		  G/B				
Doe't ik dy seach lang ferlyn 
Dm			   G/B
Wat docht it dochs sear as ik d'r wer oan tink (2x) 


C
Ik sjoch dy, 
Am
Ik hear dy, 
Dm	    G/B		(C)
Ik fiel dy, eltse kear opnij 
De rest van dit nummer alleen voor Gitaartabs leden! Maak gratis Gitaartabs account aan . 
Gitaar Tabs

Download, print en speel de Tab ♪ Twarres - Wer Bisto

Meld je aan en print, download of speel binnen 15 sec mee Tab ♫ Twarres - Wer Bisto.
Reeds 70.000 gitaristen zijn je voorgegaan.

Gratis Aanmelden Gitaartabs

Wat vind jij van deze song? Twarres - Wer Bisto

Comments Twarres - Wer Bisto - tab

Meggiesc

Meggiesc 2013-09-22

Ik zou alleen zelf van die allerlaatste 2 een 3 maken. dan klinkt het mooier omdat je dan het G/B akkoord gebruikt. Zelf speel ik hem ook op deze manier


nederwiet55

Nederwiet55 2011-10-19

Lekker nummer om te spelen! Mooie betekenis in het liedje! En zo mooi in de taal die ik verafschuw Groetjes een Fries ! :D


gitaardoos

Gitaardoos 2011-04-10

twarres, johan dan h is mijn kennis :)


chrisjuh15

Chrisjuh15 2010-03-11

lekker nummertje, goed dat de vertaling er bij staat :p


romeo3007

Romeo3007 2008-04-14

echt supermooi nummer, bedankt voor de tabLachen Knipoog


Tess

Tess 2007-06-27

Leuk liedje ja, en ook leuk dat de vertaling erbij is gezet!


Jopie

Jopie 2007-01-28

Intro en ook Solo

E --------0---0-------------------------------------------------------------||
B ----------3--1----------0-p1-----------------0----------------2-----------||
G --------------0-------2----2--2------------0---0--0---------0---0---------||
D ------2-------------2-------2----------2--------0-----------------0-------||
A ----3-------------0---------------------------------------2---------------||
E -------------------------------------0-------------------3----------------||

Ik heb hem even iets aangepast... Zo heb ik hem geleerd van de gitarist zelf... Knipoog


Plaats opmerkingen e.o. suggestie voor Twarres - Wer Bisto